Capo on 3rd fret

Intro:

G                    Am                            Bm                      Am

---------------------------------------------------------------------------------
-------------5-----------------5----------------------8---7-h-8-p-7----7---------
7---------7-------7--------7------7-----------7-----------------------9----------
--------9----------------9------------------9------------------------------------
---------------------------------------------------------------------------------
---------------------------------------------------------------------------------


G                    Am                            Bm                      Am               D7

---------------------------------------------------------------------------------
-------------5-----------------5----------------------8---7-h-8-p-7----7---------
7---------7-------7--------7------7-----------7-----------------------9----------
--------9----------------9------------------9------------------------------------
---------------------------------------------------------------------------------
---------------------------------------------------------------------------------


G                             Bm
Lai lo lai lo lai lo lai lo,

                      Em                        Am      D7    G
Lai lo lai lo lai lo lai lo lai lo la,


(repeat)

                     Am
Ay niña morena

          D7                         Bm
Ay dímelo si tu me quieres

         Em                     Am
Y ahora ay no digas nada

                D7
Porque el amor

                    G
Que yo te tengo para ti.


(repeat verse)


Chorus:

G
No, no, no, no, no,

                        Bm
Que no la quiero

                Am                        D7
No, no, no, no la quiero yo


(repeat)


(intro)


                     Am
Ay de poco tiempo

               D7                            Bm
Si la verdad que a mí me quiere      

            Em                          Am
Yo la amo, ay la nuestra vida 

                      D7                                               G
Que de tus labios quiero sentir y aprender bien


(chorus)

CHORDS:

G:   355433
Am:   577555
Bm:  799777
D7:   x57575
Em:  x79987