Capo 2

Intro:

               A           F#sus4   E7    A
||-------------------|-------------|-----------|
||-------------------|-------------|-----------|
||---4-6-6-7-6-4---6-|-7-6-4-------|-7-6-4-----|
||-7-------------7---|---------7-6-|---------7-|
||-------------------|-------------|-----------|
||-------------------|-------------|-----------|

|-----------|---------------||
|-----------|---------------||
|-----------|-------4-------||
|-7-6-------|-6-7-6---6-----||
|-------7-4-|-----------7-4-||
|-----------|---------------||
                        Yo lo...

1(2x):
(A)
 ... llevo hecha la sangre, mujer
                     C#m
De cantar siempre me gusta cantar
     E7
Y yo canto al mundo entero
                              A
A mi familia, a mis amigos también.

   F#m
Da - me

Chorus (2x):
                            E
Ay lleva me, lleva me el compás
     C#m                   F#m
Este ritmo que me gusta cantar
         B7                 E
Ay lleva me, lleva me el compás
     C#m                   F#m
Este ritmo que me gusta bailar

Intro

2(2x):
(A)
 Yo soy la noche, tú el dia
                      E7
Yo soy la sed, tú agua pura
      C#m               E7
Estoy l'hombre que cantaba
                   A
Tú la mujer que bailaba.

   F#m
Da - me

Chorus (4x)