Intro
Bm             F#         A                     E         G               D
-3-                       -3-
----------------------------------------------------------------------0---
-3p2h3---2-3-5---------------------------------5------------3-3-3-2-3-----
---------------3----2p1---2-{2----7-7-7-6-4-6-7----------0-----------------
------------------------4--}2--------------------6--2h4-----------------4-
---------------------------.0---------------------------------------------
--------------------------------------------------------------------------

Em                              F#
[simplified...........]                   -3-
-----------0-3-2----------0h2h3-5-3-5-3--6-6-6-7-8-7-----
-0-2-3-2-3-------3-2-0-------------------------------8-7-
---------------------------------------------------------
---------------------------------------------------------
---------------------------------------------------------
---------------------------------------------------------

Bm                F#                             A                  E
-3-      -3-                   -3-
-----------------------------------------------------------------0---
---3p2h3----2-3-5-3-3-3-----------------------------3-3-3p2--2-3-----
-------------------------4-3---------------6p5-6h7------------------1-
-4---------------------------5-5-5-4-5-4-----------------------------
---------------------------------------------------------------------
---------------------------------------------------------------------

G                 D
-------------------0-----0-------
---------------2-3---3-2---------
-2---2---0---4-------------------
---4---4-------------------4-2h4-
---------------------------------
---------------------------------

Em                          F#             Bm
-3- -3-    -3-
-0-2-3-5-5-5-3-3-3----9-9-9-9-10-9----------10-9--{6------
-----------------------------------12p11h12-------}7------
--------------------------------------------------{6------
--------------------------------------------------.4------
----------------------------------------------------------
----------------------------------------------------------

1
(Bm)                       F#
Por el camino del desierto, El viento me despeina
A                              E
Sube el aroma de colita, Luna, luna de nadie
G               D
Ella a lo lejos, Una luz centela
Em                   F#
La idea de mi estar, Quedar por la noche
Bm                       F#
Alli estaba a la entrada, Y las campanas a sonar
A                                  E
Y me di con llamarme mismo, Que es puerta del cielo
G                      D
Ella enciende una vela, En muestra del camino
Em                           F#
Suenan voces en el corredor, Y lo que indican diciend

Chorus

G                        D
Welcome to the Hotel California
F#                   Bm
Such a lovely place, Such a lovely place
G                        D
Welcome to the Hotel California
Em                   F#
Such a lovely place, Such a lovely place

Solo

Bm            F#        A                             E
---------------------------------0---0-------------0--------------------
-7p5h7-7----7-8p7-8p7--8p7--2h3---3---3p2---0h2h3---3p2--0h2h3---0-----
-----7-7--------------------------------------------------------2---2p1-
------------------------------------------------------------------------
------------------------------------------------------------------------
------------------------------------------------------------------------

G                          D             Em          F#
---------------------------2-2h3p2-3p2--3-5-5-7-7---6-7-7--9--9-
---------------------2-3-5--------------5-7-7-8-8---7-8-8-11-11-
---------------0-2-4--------------------------------------------
---------0-2-4--------------------------------------------------
---0-2-4--------------------------------------------------------
-3--------------------------------------------------------------

2
Bm                         F#
Ella al lado que brillaba, Tenia una Mercedes
A                         E
Rodeada de chicos guapos, Ella llamaba amigos
G                     D
Cuando viene despacio, Del tumba de verano
Em                     F#
Aquel era pa recordar, Y otro pa olvidar
Bm                 F#
Le pedi al capitan, Que sirve el vino
A                   E
Y pedi con un amor, Tenido este alcohol
G                          D
De este sesenta y nueve, Famosa y que llamando
Em                         F#
Pues me va a despertar, La noche para decir

Chorus

3
Bm                    F#
El espejo en el techo, Champana en el hielo
A          E
Y ella dijo somos todos prisioneros
G                            D
Y en los cuartos principales, Hacen sucias esta
Em                    F#
Hasta aca a la bestia, Pero no la logra a matar
Bm                 F#
Mi ultimo recuerdo, Corria hacia la puerta
A                                 E
Ver una candela en el camino, Por donde habia llegado
G                        D
Relax dijo el portero, Por mi es honor recibir
Em                         F#
Puede salir cuando quiere, Pero nunca yo partir

Chorus

Solo
Bm                   F#
-{-9-10----9---------9----9--------------------
-}12------------12-----12----12-12p11-12-12p11-
-{11----11---11--------------------------------
-.12-------------------------------------------
-----------------------------------------------
-----------------------------------------------

A              E        G                      D
[hold]          [hold]
-------------5--------------------------------------------
-------5-7-8----------------------------------------------
-------------------------------2---0-------2--------------
-----5-----------2-----------5---5-------5---5-4---{0-2-0-
---7---------------2-------5-----------5-----------.0-----
-5---------------0-------3--------------------------------

Em                      F#       Bm              F#
---------------------------------{2-----------2-{3-2-0-3--2--2-
---------------------------------.3-3---2-3-5---}2--------------
--------------------------0-------------------------------------
-4p2p0-4p2p0-4p2p0h2-{4-----4-4-----------------.5--------------
---------------------.5-----------------------------------------
----------------------------------------------------------------

A                      E                  G           D
-----------0-0---------0---------------------------------2-2----------
---0-2-3-3-----3-3-------3-2-0---------------------2-3-5-----3-3-(3)-
-2-----------------------------2-(2)p1p0----4----4--------------------
------------------------------------------5---------------------------
----------------------------------------------------------------------
----------------------------------------------------------------------

Em                              F#
---------------------------------------------
---------------------------------------------
-4p2p0h2h4p2p0h2h4p2p0h2h4p2p0---------------
----------------------------------5-0------5-
--------------------------------------4------
---------------------------------------------

Bm             F#                   A             E
-------2-------3------------------------------------------------------2-
-3-2-3---3-2-3---2-5---2---------------------------------0-2-3-2-3--5---
---------------------3---------------------------------2----------------
--------------------------4h5p4h5--------------0-2-4-5------------------
----------------------------------5--------4-5--------------------------
------------------------------------75---5------------------------------

G                      D
[simplified.............................]
-3-         -3- -3- -3-
-----------------------------5-5-5-7-7-7-10-9-10-9-
-------5-7-7-7-8-8-7-7-8-8-8-----------------------
-7-6-7---------------------------------------------
---------------------------------------------------
---------------------------------------------------
---------------------------------------------------

Em                             F#
----9-10-10-9-9----------12-12-12-12-12-12p10p9----10-10-9-9-9-
------------------------------------------------12-------------
-12-------------12-12-12---------------------------------------
---------------------------------------------------------------
---------------------------------------------------------------
---------------------------------------------------------------

Bm                      F#           A         E
-------0-2----------0-2-2h3p2p0-------------------------------
-3-2-3-----3-3--2-3-------------3-2---------------------------
--------------------------------------------------------------
--------------------------------------------------------------
--------------------------------------4p2p1p0---2-0-----------
----------------------------------------------------4-5p4-2p0-

G                                    D
-----------------------------9-10-10-10-9-9-------
-----------------------10-12----------------------
---------------9-11-12----------------------11-11-
---------11-12------------------------------------
-9h10-12------------------------------------------
--------------------------------------------------

Em            F#                 Bm                 F#
---------------------------------------------------------9----------
----------------------------------7---------7-8-7-8-58-7---7-7----7-
---------------6-6------------6-6------6-9----------------------9---
-9-9---------------8-8-----9---------9------------------------------
-----10-10-7-----------9--------------------------------------------
--------------------------------------------------------------------

A                    E(add9)
[hold...]
-----------3-5-3-3-------------
-----3-5-7---------------------
-----------------------------1-
-------------------------4-4---
-----------------------2-------
-5-3-----------------0---------

G                                 D
-3-
[simplified...............]
-------------------5--------------5-7-7-9-10-9-9-------
---5-7---5-7-8-8-8---8-7-5--8-7-8----------------10-10-
-7-----7-----------------------------------------------
-------------------------------------------------------
-------------------------------------------------------
-------------------------------------------------------

Em                    F#                                   Bm
------5---7-710-9-12-10-10-9-9-9-10p9-----------------------------
--7-8---8------------------------------12-10---------5-7-----------
---------------------------------------------12p11-------6-7----6-7-
-------------------------------------------------------------------
-------------------------------------------------------------------
-------------------------------------------------------------------