Intro:
           Bm  G          Em          F#7        Bm   G
||-7--9-10----------7---|---------------|-7-9-10-----------7---|
||---------7---10-8-----|---7-8---------|--------7----10-8-----|
||--------------------7-|-9-------7-9-6-|--------------------7-|
||----------------------|-------9-------|----------------------|
||----------------------|---------------|----------------------|
||----------------------|---------------|----------------------|

 Em            F#7              Bm
|-------10-9-7-------|------------||-0-2-2-2/5-3-2-
|---7-8--------11----|------------||---------------
|-9---------------11-|-9-7--------||---------------
|--------------------|-----11-8-9-||---------------
|--------------------|------------||---------------
|--------------------|------------||---------------


1:
(Bm)
  Soy como un silencio
                G
También como un ciego
              Em
Abrazarte la ahora
                A7
Que no quiero morir
               D
Y como estoy viviendo
            G
Mejor quier - o morir
                     C#m
Porque mis penas son grandes
             F#7
Desde que te conocí
                B
Cuando tan solo yo me vi


2:
Bm          Em
  Que no es raro
                    A7
Tengo poner un amor con otro
        D
Y ser esclavo

Y tener que callarlo
      C#m
Abandonado
           F#7
Y quedando solo con dolor
                 B      Bm
Tú no tendrás perdón de yo


Chorus(2x):
A                      F#
Vete, mujer, que no te quiero más
A                       F#
Vete, mujer, que tienes que marchar
D                C
Sólo yo busco la libertad
          F#7             Bm
No quiero tanto más sufrir__


Repeat intro


3:
(Bm)
  Soy como un silencio
                G
También como un ciego
Bm          Em
  Que no es raro
                    A7
Tengo poner un amor con otro
        D
Y ser esclavo

Y tener que callarlo
      C#m
Abandonado
           F#7
Y quedando solo con dolor
                 B      Bm
Tú no tendrás perdón de yo


Chorus(2x)


       F#7         G
Más sufrir, más sufrir
       Bm
Quiero libertad