Capo 3

Intro 1    

---0---0-------0---0------0---0-------0---0---
-4---2-------4---2------4---2-------4---2-----
-3-------3---3-------3--3-------3---3-------3-
-1-----------2----------1-----------2---------
----------------------------------------------
----------------------------------------------

Intro 2(2x)

 E      F#     E     F#       E     F#       D#
-----------------------------------------------0---0---
-----------------------------------------------------4-
-4-3-1----1------------------4-3-1----1----------3-----
-------4----4-2-4-2-4-2-4-4--------4----4-2-1----------
-------------------------------------------------------
-------------------------------------------------------


Verse 1 (2x)
 C#m        F#                  C#m            F#
----------------------2--4p2-0-------------------------2-4p2-0---2-2-
-7p5p4h5-------2--4h5----------7p5p4h5h5h5-------2-4h5---------4-----
-----------3h4-------------------------------3h4---------------------
---------------------------------------------------------------------
---------------------------------------------------------------------
---------------------------------------------------------------------
 B                 E                C#m              D#
                             [simplified........]
-----2-2-2--------7-6-4------------4-2-0-----------------------
-45-------5-4--4-------7-5--0-2-4-------4-2-0-----------------
-------------------------------------------------2p0-----------
-----------------------------------------------------4p2p1p0h1-
---------------------------------------------------------------
---------------------------------------------------------------


Verse 2
G#m       F#      E             D#                      G#m        F#
---------------------------------------------0----------------------------2---2
-----0h2---------0h2---------------------2-4---2p0---2----0h2p0---------4---4--
---------1----3------1---3--0-0--------3-----------3------------3p1------------
{6----------4----------4--------2p1p0h1-----------------------------4----------
}6-----------------------------------------------------------------------------
'4-----------------------------------------------------------------------------

                 E                 D#
----------------------------------0---
5p4p2p0-----------------------2h4---4-
--------3p1---1-1---------------------
------------4-----1h2p1h2p1-----------
--------------------------------------
--------------------------------------

G#m                F#              E                       D#
------4-6-7-7-67-7-6-4------7p6-7p6p4---------6-4-6-4-24--2-0---
-----4------------------7--7-----------7-5---4------------------4-
----4-------------------------------------------------------------
---6--------------------------------------------------------------
--6---------------------------------------------------------------
-4---------------------------------------------------------------

         G#m                      F#
--------------7-6---9-7-6-11-9-7-12-11-9----9------------
--74h5-9-7-5-----9----------------------12---12-11-9----
------------------------------------------------------11-
---------------------------------------------------------
---------------------------------------------------------
---------------------------------------------------------
 E                                  D#
                                         [bass...............]
-11-9-7------11-9-7------11-11-11--11-11-------------------
--9-----11-9--9-----11-9--9--9--9---9--9-------------------
-----------------------------------------------------------
-----------------------------------------1-1---------------
---------------------------------------------4-2-2-1-------
-----------------------------------------------------4-4-2-

Intro 2(2x)

Verse 3
 C#m              F#                C#m           F#sus4 F#
                                [simplified.....]
--------------------------------------------------'2---------
-5-4----------------------------5-7-5-7-7-5p4-----{2---------
-----6p4h6---4h6p4-4--------------------------6---}4-4-3-4-6-
---------------------8p6-8p6p4-------------------------------
-------------------------------------------------------------
-------------------------------------------------------------
 B                    E                C#m                       D#
[simplified.......]
-----2-2---2-2------------------------7-6-4------------------------------
-4-5-----5-----5-4---2---0---0--0-2-4-------5p4--------------------------
---------------------------3--------------------6p4--3p1-1---------------
-----------------------------------------------------------4-2-2p1p0-2p1-
-------------------------------------------------------------------------
-------------------------------------------------------------------------
 C#m             F#               C#m                     F#
------------9p7h9-7--------------4------------------4-7-9-7-6-7-6-4---
-7p5-45--7---------11p9-7----7----7-5p4h5----4-5-7-----------------7-
-6-------------------------9--6-------------6-------------------------
-6--------------------------------------------------------------------
----------------------------------------------------------------------
----------------------------------------------------------------------
      B                   E            C#m                        D#
-----2-------------0h2p0------------------------------------------------------
-4h5---5h4-2-5h4---------5p4-2p0----------------------------------------2-4-4-
---------------------------------3p1--1-3-4----1-3------0---------------------
---------------------------------------------4------2-4---4-2-1-2-1-0-1-------
------------------------------------------------------------------------------
------------------------------------------------------------------------------

Verse 4
 G#m      F#      E           D#
---------------------------------------------
-----0h2---------0h2--------42h0---0-2------
---------1-----4-----1---4--------3----------
-{6----------3---------3-----------------1-1-
-}6------------------------------------------
-'4------------------------------------------
 G#m             F#                 E                       D#
------------------------------------------------------------------0-4-6-4-6-
------------------------------0-2-4--2-2-2-0-0------------------4-----------
-1-----1------1---1-------1h3------------------3-1--1-1-1-------------------
---4-4----4-4---4--4---2p1--------------------------------4p2p1-------------
----------------------------------------------------------------------------
----------------------------------------------------------------------------
        G#m                 F#             E               D#
-4-6-7-11-11-11-11-11-11---4-4-4-4-4-4-4--2-0-2-0-2-2-2----------------
--------9--9--9--9--9--9---2-2-2-2-2-2-2-----------------5-4-5-4-5-5-5-
-----------------------------------------------------------------------
-----------------------------------------------------------------------
-----------------------------------------------------------------------
-----------------------------------------------------------------------
       G#m                  F#                           E               D#
---------------------------7p6-4-2-0-------------------------------------4---4-
-5-4-2-5-4---2-5-4---2-5-4------------0-----0---0--------------------------3---
----------------------------------------3-----3---0--------------0-------------
-----------------------------------------------------4-2---1-2-4---4-2-1-------
-------------------------------------------------------------------------------
-------------------------------------------------------------------------------

[bass...............]  Intro(2x)
-------------------
-------------------
-------------------
-1-1---------------
-----4-2-2-1-------
-------------4-4-2-