(Capo on 1)

Arpeggio 1:

|------------------------1--------|
|----------4-----------------4----|
|------4-----------4--------------|
|---3-----------------------------|
|1--------------------------------|
|---------------------------------|


Arpeggio 2:

|--------------------------1-------|
|-------------------------------4--|
|------------4---------------------|
|--------1-----------1-------------|
|----2-----------------------------|
|4---------------------------------|


Arpeggio 2 (v.2):

|--------------------------1--------------------------------2----1-h-2-p-1|
|-------------------------------4---------------------------4----4---(4)--|
|------------4---------------------------------------4------4----4---(4)--|
|--------1-----------1-------------------------1--------------------------|
|----2-------------------------------------2------------------------------|
|4-------------------------------------4----------------------------------|


Arpeggio 3:

|-----------------------2----------|
|----------4----------------4------|
|------4-----------4---------------|
|---4------------------------------|
|2---------------------------------|
|----------------------------------|


Arpeggio 4:

|-------------------------3------|
|---6-------6----------------6---|
|-------3------------3-----------|
|1-------------------------------|
|--------------------------------|
|--------------------------------|


Arpeggio 5:

|-------------------------3------|
|---6-------6----------------6---|
|-------3------------3-----------|
|--------------------------------|
|5-------------------------------|
|--------------------------------|


Arpeggio 6:

|-------------------------3------|
|---6-------6----------------6---|
|-------3------------3-----------|
|--------------------------------|
|4-------------------------------|
|--------------------------------|


Arpeggio 7:

|-------------------------3------|
|---5-------5----------------5---|
|-------3------------3-----------|
|--------------------------------|
|3-------------------------------|
|--------------------------------|


Arpeggio 8:

|---4----------------4-----------|
|--------6--------------6--------|
|-----5----------5---------------|
|3-------------------------------|
|--------------------------------|
|--------------------------------|


Arpeggio 9:

|---4----------------4-----------|
|--------6--------------6--------|
|-----5----------5---------------|
|2-------------------------------|
|--------------------------------|
|--------------------------------|


Arpeggio 10:

|---4----------------4-----------|
|--------6--------------6--------|
|-----5----------5---------------|
|1-------------------------------|
|--------------------------------|
|--------------------------------|


Arpeggio 11:

|--------------1----------|
|------3---------3--------|
|----3------3-------------|
|--3----------------------|
|1------------------------|
|-------------------------|


Arpeggio 12:

|--------------------------|
|------------------4-------|
|---------5----------------|
|------1--------1----1-----|
|---3----------------------|
|4-------------------------|


Arpeggio 13:

|--------------------------|
|--6---------------6-------|
|-------6------------------|
|----6----------6-----6----|
|4-------------------------|
|--------------------------|


Intro:  Arp. 1 (5x)

1                          2    3     2
Quisiera enamorar

            3                            1
Por el due–o de la vida

1                          2    3     2 (v.2)
Quisiera me enamore

3                              1
Ore y vente perd—n

4
Quiero ser

               5                             6
Que es tu no sabe donde ir

                 7                              8
Por eso que la mano te darŽ

           8
Hoy llena bien

9
En tu amor ese 

          10                            11
Que llegar un d’a ya pude

          12     2    4
Ay pude poner


4  13   1

1
Sufrir es la verdad

                    3   2      3    1
Como un cari–o

1
Si luna de noche ya me es bueno

3                              2
A jurarme est‡ all’

3                             1
La vi en el pasado

4                                5
Quiero ser un dem‡s

6
Mira que faz

                        7
Un hombre soy 

      8                  9
Enamorar otra vez yo te vi

            10
Por la calle

                         11
Te voy a buscar

                  4
La vi a morena

11                         12
La gitana que yo quer’a

       2                                           4
Te darŽ se–al que no hay miedo

4                                                 11
Querer la gitana que yo he querido

     12
El amor

                            4
Que todo he perdido     

4                                    11     12
La agon’a te di tu amor   

                                                   4
Si el trove alli el puro coraz—n

4
Di mi amor

5
No te vayas

6
Es mi vida

                  7
Vengo aqu’

8                                 9
Yo, sereno, angustiado y humilde

            10
De la vida darŽ

          11     12      4
Ey----------------ey

11 
El amor

                4
No ha llegado

              12
Que perd’a

11
Como una amada

               4
La he dejado huir

4
Si ya la he conocido

               5
Que perd’ y dare por ella

        6
Los besos que ya te he dado

           7
Te darŽ

             8
Te quiero el porvenir

               9
Una de las delicias de la vida pasŽ all’

        10                          11
Como una "love" gitano

12                                       4
Jam‡s no llego a olvidar

12                              4
Jam‡s no olvidarŽ

11                        12
Lai lo lai lo lai lo

11                        12
Lai lo lai lo lai lo

4                         11
Lai lo lai lo lai lo

12                         4
Lai lo lai lo lai lo


11                        12
Lai lo lai lo lai lo

11                        12
Lai lo lai lo lai lo

4                         11
Lai lo lai lo lai lo

12                  4
Oh o o o  amor